ISO-10303-21;
HEADER;
/* Generated by software containing ST-Developer
 * from STEP Tools, Inc. (www.steptools.com) 
 */

FILE_DESCRIPTION(
/* description */ ('Kolbenstange'),
/* implementation_level */ '2;1');

FILE_NAME(
/* name */ 
'O:\\Gasfedershop\\CAD\\CAD GF-Shop Stahl+VA\\Gasfedern_stp\\Gasfedern
_stp\\Gasdruckfeder 6-15 Hub 250.stp',
/* time_stamp */ '2018-11-13T13:41:28+01:00',
/* author */ ('dlamberti'),
/* organization */ ('Hahn-Gasfedern GmbH'),
/* preprocessor_version */ 'ST-DEVELOPER v16.1',
/* originating_system */ 'Autodesk Inventor 2016',
/* authorisation */ '');

FILE_SCHEMA (('AUTOMOTIVE_DESIGN { 1 0 10303 214 3 1 1 }'));
ENDSEC;

DATA;
#10=MECHANICAL_DESIGN_GEOMETRIC_PRESENTATION_REPRESENTATION('',(#36,#35,
#37,#38,#39,#40,#41),#417);
#11=ITEM_DEFINED_TRANSFORMATION($,$,#224,#263);
#12=ITEM_DEFINED_TRANSFORMATION($,$,#230,#264);
#13=ITEM_DEFINED_TRANSFORMATION($,$,#254,#265);
#14=(
REPRESENTATION_RELATIONSHIP($,$,#435,#438)
REPRESENTATION_RELATIONSHIP_WITH_TRANSFORMATION(#11)
SHAPE_REPRESENTATION_RELATIONSHIP()
);
#15=(
REPRESENTATION_RELATIONSHIP($,$,#436,#438)
REPRESENTATION_RELATIONSHIP_WITH_TRANSFORMATION(#12)
SHAPE_REPRESENTATION_RELATIONSHIP()
);
#16=(
REPRESENTATION_RELATIONSHIP($,$,#437,#438)
REPRESENTATION_RELATIONSHIP_WITH_TRANSFORMATION(#13)
SHAPE_REPRESENTATION_RELATIONSHIP()
);
#17=CONTEXT_DEPENDENT_SHAPE_REPRESENTATION(#14,#432);
#18=CONTEXT_DEPENDENT_SHAPE_REPRESENTATION(#15,#433);
#19=CONTEXT_DEPENDENT_SHAPE_REPRESENTATION(#16,#434);
#20=NEXT_ASSEMBLY_USAGE_OCCURRENCE('ENG-001076:1','ENG-001076:1',
'ENG-001076:1',#443,#440,'ENG-001076:1');
#21=NEXT_ASSEMBLY_USAGE_OCCURRENCE('ENG-007217:1','ENG-007217:1',
'ENG-007217:1',#443,#441,'ENG-007217:1');
#22=NEXT_ASSEMBLY_USAGE_OCCURRENCE('Gew-03.1:1','Gew-03.1:1',
'Gew-03.1:1',#443,#442,'Gew-03.1:1');
#23=TOROIDAL_SURFACE('',#237,3.94999999999993,3.85);
#24=TOROIDAL_SURFACE('',#251,3.94999999999993,3.85);
#25=CONICAL_SURFACE('',#231,2.25000000000008,45.0000000000016);
#26=CONICAL_SURFACE('',#240,5.1157705774124,48.9512427528074);
#27=CONICAL_SURFACE('',#249,5.15661404937009,44.9999999999988);
#28=CONICAL_SURFACE('',#255,2.25,45.);
#29=SHAPE_REPRESENTATION_RELATIONSHIP('SRR','None',#435,#32);
#30=SHAPE_REPRESENTATION_RELATIONSHIP('SRR','None',#436,#33);
#31=SHAPE_REPRESENTATION_RELATIONSHIP('SRR','None',#437,#34);
#32=ADVANCED_BREP_SHAPE_REPRESENTATION('',(#42),#413);
#33=ADVANCED_BREP_SHAPE_REPRESENTATION('',(#43),#414);
#34=ADVANCED_BREP_SHAPE_REPRESENTATION('',(#44),#415);
#35=STYLED_ITEM('',(#459),#42);
#36=STYLED_ITEM('',(#460),#43);
#37=STYLED_ITEM('',(#459),#217);
#38=STYLED_ITEM('',(#459),#218);
#39=STYLED_ITEM('',(#459),#219);
#40=STYLED_ITEM('',(#459),#220);
#41=STYLED_ITEM('',(#459),#44);
#42=MANIFOLD_SOLID_BREP('Volumenk\X\F6rper1',#221);
#43=MANIFOLD_SOLID_BREP('Volumenk\X\F6rper1',#222);
#44=MANIFOLD_SOLID_BREP('Volumenk\X\F6rper1',#223);
#45=FACE_BOUND('',#86,.T.);
#46=FACE_BOUND('',#88,.T.);
#47=FACE_BOUND('',#90,.T.);
#48=FACE_BOUND('',#93,.T.);
#49=FACE_BOUND('',#95,.T.);
#50=FACE_BOUND('',#97,.T.);
#51=FACE_BOUND('',#99,.T.);
#52=FACE_BOUND('',#102,.T.);
#53=FACE_BOUND('',#104,.T.);
#54=FACE_BOUND('',#106,.T.);
#55=FACE_BOUND('',#108,.T.);
#56=FACE_BOUND('',#110,.T.);
#57=FACE_BOUND('',#112,.T.);
#58=CYLINDRICAL_SURFACE('',#229,3.00000000000001);
#59=CYLINDRICAL_SURFACE('',#234,2.50000000000008);
#60=CYLINDRICAL_SURFACE('',#242,5.50000000000007);
#61=CYLINDRICAL_SURFACE('',#247,5.49999999999991);
#62=CYLINDRICAL_SURFACE('',#253,7.79999999999993);
#63=CYLINDRICAL_SURFACE('',#258,2.5);
#64=FACE_OUTER_BOUND('',#83,.T.);
#65=FACE_OUTER_BOUND('',#84,.T.);
#66=FACE_OUTER_BOUND('',#85,.T.);
#67=FACE_OUTER_BOUND('',#87,.T.);
#68=FACE_OUTER_BOUND('',#89,.T.);
#69=FACE_OUTER_BOUND('',#91,.T.);
#70=FACE_OUTER_BOUND('',#92,.T.);
#71=FACE_OUTER_BOUND('',#94,.T.);
#72=FACE_OUTER_BOUND('',#96,.T.);
#73=FACE_OUTER_BOUND('',#98,.T.);
#74=FACE_OUTER_BOUND('',#100,.T.);
#75=FACE_OUTER_BOUND('',#101,.T.);
#76=FACE_OUTER_BOUND('',#103,.T.);
#77=FACE_OUTER_BOUND('',#105,.T.);
#78=FACE_OUTER_BOUND('',#107,.T.);
#79=FACE_OUTER_BOUND('',#109,.T.);
#80=FACE_OUTER_BOUND('',#111,.T.);
#81=FACE_OUTER_BOUND('',#113,.T.);
#82=FACE_OUTER_BOUND('',#114,.T.);
#83=EDGE_LOOP('',(#163));
#84=EDGE_LOOP('',(#164));
#85=EDGE_LOOP('',(#165));
#86=EDGE_LOOP('',(#166));
#87=EDGE_LOOP('',(#167));
#88=EDGE_LOOP('',(#168));
#89=EDGE_LOOP('',(#169));
#90=EDGE_LOOP('',(#170));
#91=EDGE_LOOP('',(#171));
#92=EDGE_LOOP('',(#172));
#93=EDGE_LOOP('',(#173));
#94=EDGE_LOOP('',(#174));
#95=EDGE_LOOP('',(#175));
#96=EDGE_LOOP('',(#176));
#97=EDGE_LOOP('',(#177));
#98=EDGE_LOOP('',(#178));
#99=EDGE_LOOP('',(#179));
#100=EDGE_LOOP('',(#180));
#101=EDGE_LOOP('',(#181));
#102=EDGE_LOOP('',(#182));
#103=EDGE_LOOP('',(#183));
#104=EDGE_LOOP('',(#184));
#105=EDGE_LOOP('',(#185));
#106=EDGE_LOOP('',(#186));
#107=EDGE_LOOP('',(#187));
#108=EDGE_LOOP('',(#188));
#109=EDGE_LOOP('',(#189));
#110=EDGE_LOOP('',(#190));
#111=EDGE_LOOP('',(#191));
#112=EDGE_LOOP('',(#192));
#113=EDGE_LOOP('',(#193));
#114=EDGE_LOOP('',(#194));
#115=CIRCLE('',#226,3.00000000000003);
#116=CIRCLE('',#228,2.99999999999999);
#117=CIRCLE('',#232,2.50000000000008);
#118=CIRCLE('',#233,2.00000000000008);
#119=CIRCLE('',#235,2.50000000000008);
#120=CIRCLE('',#238,4.73154115482473);
#121=CIRCLE('',#239,7.79999999999993);
#122=CIRCLE('',#241,5.50000000000007);
#123=CIRCLE('',#243,5.50000000000007);
#124=CIRCLE('',#246,5.49999999999991);
#125=CIRCLE('',#248,5.49999999999991);
#126=CIRCLE('',#250,4.81322809874027);
#127=CIRCLE('',#252,7.79999999999993);
#128=CIRCLE('',#256,2.5);
#129=CIRCLE('',#257,2.);
#130=CIRCLE('',#259,2.5);
#131=VERTEX_POINT('',#352);
#132=VERTEX_POINT('',#355);
#133=VERTEX_POINT('',#360);
#134=VERTEX_POINT('',#362);
#135=VERTEX_POINT('',#365);
#136=VERTEX_POINT('',#369);
#137=VERTEX_POINT('',#371);
#138=VERTEX_POINT('',#374);
#139=VERTEX_POINT('',#377);
#140=VERTEX_POINT('',#381);
#141=VERTEX_POINT('',#384);
#142=VERTEX_POINT('',#387);
#143=VERTEX_POINT('',#390);
#144=VERTEX_POINT('',#395);
#145=VERTEX_POINT('',#397);
#146=VERTEX_POINT('',#400);
#147=EDGE_CURVE('',#131,#131,#115,.T.);
#148=EDGE_CURVE('',#132,#132,#116,.T.);
#149=EDGE_CURVE('',#133,#133,#117,.T.);
#150=EDGE_CURVE('',#134,#134,#118,.T.);
#151=EDGE_CURVE('',#135,#135,#119,.T.);
#152=EDGE_CURVE('',#136,#136,#120,.T.);
#153=EDGE_CURVE('',#137,#137,#121,.T.);
#154=EDGE_CURVE('',#138,#138,#122,.T.);
#155=EDGE_CURVE('',#139,#139,#123,.T.);
#156=EDGE_CURVE('',#140,#140,#124,.T.);
#157=EDGE_CURVE('',#141,#141,#125,.T.);
#158=EDGE_CURVE('',#142,#142,#126,.T.);
#159=EDGE_CURVE('',#143,#143,#127,.T.);
#160=EDGE_CURVE('',#144,#144,#128,.T.);
#161=EDGE_CURVE('',#145,#145,#129,.T.);
#162=EDGE_CURVE('',#146,#146,#130,.T.);
#163=ORIENTED_EDGE('',*,*,#147,.T.);
#164=ORIENTED_EDGE('',*,*,#148,.F.);
#165=ORIENTED_EDGE('',*,*,#147,.F.);
#166=ORIENTED_EDGE('',*,*,#148,.T.);
#167=ORIENTED_EDGE('',*,*,#149,.T.);
#168=ORIENTED_EDGE('',*,*,#150,.T.);
#169=ORIENTED_EDGE('',*,*,#151,.T.);
#170=ORIENTED_EDGE('',*,*,#149,.F.);
#171=ORIENTED_EDGE('',*,*,#150,.F.);
#172=ORIENTED_EDGE('',*,*,#152,.F.);
#173=ORIENTED_EDGE('',*,*,#153,.T.);
#174=ORIENTED_EDGE('',*,*,#154,.F.);
#175=ORIENTED_EDGE('',*,*,#152,.T.);
#176=ORIENTED_EDGE('',*,*,#155,.F.);
#177=ORIENTED_EDGE('',*,*,#154,.T.);
#178=ORIENTED_EDGE('',*,*,#155,.T.);
#179=ORIENTED_EDGE('',*,*,#151,.F.);
#180=ORIENTED_EDGE('',*,*,#156,.F.);
#181=ORIENTED_EDGE('',*,*,#157,.F.);
#182=ORIENTED_EDGE('',*,*,#156,.T.);
#183=ORIENTED_EDGE('',*,*,#158,.F.);
#184=ORIENTED_EDGE('',*,*,#157,.T.);
#185=ORIENTED_EDGE('',*,*,#159,.F.);
#186=ORIENTED_EDGE('',*,*,#158,.T.);
#187=ORIENTED_EDGE('',*,*,#153,.F.);
#188=ORIENTED_EDGE('',*,*,#159,.T.);
#189=ORIENTED_EDGE('',*,*,#160,.T.);
#190=ORIENTED_EDGE('',*,*,#161,.T.);
#191=ORIENTED_EDGE('',*,*,#162,.T.);
#192=ORIENTED_EDGE('',*,*,#160,.F.);
#193=ORIENTED_EDGE('',*,*,#161,.F.);
#194=ORIENTED_EDGE('',*,*,#162,.F.);
#195=PLANE('',#225);
#196=PLANE('',#227);
#197=PLANE('',#236);
#198=PLANE('',#244);
#199=PLANE('',#245);
#200=PLANE('',#260);
#201=PLANE('',#261);
#202=ADVANCED_FACE('',(#64),#195,.T.);
#203=ADVANCED_FACE('',(#65),#196,.T.);
#204=ADVANCED_FACE('',(#66,#45),#58,.T.);
#205=ADVANCED_FACE('',(#67,#46),#25,.T.);
#206=ADVANCED_FACE('',(#68,#47),#59,.T.);
#207=ADVANCED_FACE('',(#69),#197,.T.);
#208=ADVANCED_FACE('',(#70,#48),#23,.T.);
#209=ADVANCED_FACE('',(#71,#49),#26,.T.);
#210=ADVANCED_FACE('',(#72,#50),#60,.T.);
#211=ADVANCED_FACE('',(#73,#51),#198,.T.);
#212=ADVANCED_FACE('',(#74),#199,.T.);
#213=ADVANCED_FACE('',(#75,#52),#61,.T.);
#214=ADVANCED_FACE('',(#76,#53),#27,.T.);
#215=ADVANCED_FACE('',(#77,#54),#24,.T.);
#216=ADVANCED_FACE('',(#78,#55),#62,.T.);
#217=ADVANCED_FACE('',(#79,#56),#28,.T.);
#218=ADVANCED_FACE('',(#80,#57),#63,.T.);
#219=ADVANCED_FACE('',(#81),#200,.T.);
#220=ADVANCED_FACE('',(#82),#201,.T.);
#221=CLOSED_SHELL('',(#202,#203,#204));
#222=CLOSED_SHELL('',(#205,#206,#207,#208,#209,#210,#211,#212,#213,#214,
#215,#216));
#223=CLOSED_SHELL('',(#217,#218,#219,#220));
#224=AXIS2_PLACEMENT_3D('placement',#350,#266,#267);
#225=AXIS2_PLACEMENT_3D('',#351,#268,#269);
#226=AXIS2_PLACEMENT_3D('',#353,#270,#271);
#227=AXIS2_PLACEMENT_3D('',#354,#272,#273);
#228=AXIS2_PLACEMENT_3D('',#356,#274,#275);
#229=AXIS2_PLACEMENT_3D('',#357,#276,#277);
#230=AXIS2_PLACEMENT_3D('placement',#358,#278,#279);
#231=AXIS2_PLACEMENT_3D('',#359,#280,#281);
#232=AXIS2_PLACEMENT_3D('',#361,#282,#283);
#233=AXIS2_PLACEMENT_3D('',#363,#284,#285);
#234=AXIS2_PLACEMENT_3D('',#364,#286,#287);
#235=AXIS2_PLACEMENT_3D('',#366,#288,#289);
#236=AXIS2_PLACEMENT_3D('',#367,#290,#291);
#237=AXIS2_PLACEMENT_3D('',#368,#292,#293);
#238=AXIS2_PLACEMENT_3D('',#370,#294,#295);
#239=AXIS2_PLACEMENT_3D('',#372,#296,#297);
#240=AXIS2_PLACEMENT_3D('',#373,#298,#299);
#241=AXIS2_PLACEMENT_3D('',#375,#300,#301);
#242=AXIS2_PLACEMENT_3D('',#376,#302,#303);
#243=AXIS2_PLACEMENT_3D('',#378,#304,#305);
#244=AXIS2_PLACEMENT_3D('',#379,#306,#307);
#245=AXIS2_PLACEMENT_3D('',#380,#308,#309);
#246=AXIS2_PLACEMENT_3D('',#382,#310,#311);
#247=AXIS2_PLACEMENT_3D('',#383,#312,#313);
#248=AXIS2_PLACEMENT_3D('',#385,#314,#315);
#249=AXIS2_PLACEMENT_3D('',#386,#316,#317);
#250=AXIS2_PLACEMENT_3D('',#388,#318,#319);
#251=AXIS2_PLACEMENT_3D('',#389,#320,#321);
#252=AXIS2_PLACEMENT_3D('',#391,#322,#323);
#253=AXIS2_PLACEMENT_3D('',#392,#324,#325);
#254=AXIS2_PLACEMENT_3D('placement',#393,#326,#327);
#255=AXIS2_PLACEMENT_3D('',#394,#328,#329);
#256=AXIS2_PLACEMENT_3D('',#396,#330,#331);
#257=AXIS2_PLACEMENT_3D('',#398,#332,#333);
#258=AXIS2_PLACEMENT_3D('',#399,#334,#335);
#259=AXIS2_PLACEMENT_3D('',#401,#336,#337);
#260=AXIS2_PLACEMENT_3D('',#402,#338,#339);
#261=AXIS2_PLACEMENT_3D('',#403,#340,#341);
#262=AXIS2_PLACEMENT_3D('placement',#404,#342,#343);
#263=AXIS2_PLACEMENT_3D('',#405,#344,#345);
#264=AXIS2_PLACEMENT_3D('',#406,#346,#347);
#265=AXIS2_PLACEMENT_3D('',#407,#348,#349);
#266=DIRECTION('axis',(0.,0.,1.));
#267=DIRECTION('refdir',(1.,0.,0.));
#268=DIRECTION('center_axis',(1.,-1.42793958151146E-17,0.));
#269=DIRECTION('ref_axis',(0.,0.,-1.));
#270=DIRECTION('center_axis',(1.,-1.42793958151146E-17,0.));
#271=DIRECTION('ref_axis',(0.,1.,0.));
#272=DIRECTION('center_axis',(-1.,1.42793958151146E-17,0.));
#273=DIRECTION('ref_axis',(0.,0.,1.));
#274=DIRECTION('center_axis',(1.,-1.42793958151146E-17,0.));
#275=DIRECTION('ref_axis',(0.,1.,0.));
#276=DIRECTION('center_axis',(1.,-1.42793958151146E-17,0.));
#277=DIRECTION('ref_axis',(0.,1.,0.));
#278=DIRECTION('axis',(0.,0.,1.));
#279=DIRECTION('refdir',(1.,0.,0.));
#280=DIRECTION('center_axis',(-1.,-2.6938102900029E-31,0.));
#281=DIRECTION('ref_axis',(1.19724901777905E-31,-1.,0.));
#282=DIRECTION('center_axis',(1.,2.69381029000286E-31,0.));
#283=DIRECTION('ref_axis',(0.,-1.,0.));
#284=DIRECTION('center_axis',(-1.,-2.69381029000286E-31,0.));
#285=DIRECTION('ref_axis',(2.69381029000286E-31,-1.,0.));
#286=DIRECTION('center_axis',(1.,2.69381029000286E-31,0.));
#287=DIRECTION('ref_axis',(0.,1.,0.));
#288=DIRECTION('center_axis',(1.,2.69381029000286E-31,0.));
#289=DIRECTION('ref_axis',(0.,1.,0.));
#290=DIRECTION('center_axis',(1.,2.69381029000286E-31,0.));
#291=DIRECTION('ref_axis',(0.,0.,-1.));
#292=DIRECTION('center_axis',(1.,2.69381029000286E-31,0.));
#293=DIRECTION('ref_axis',(0.,0.,-1.));
#294=DIRECTION('center_axis',(1.,2.69381029000286E-31,0.));
#295=DIRECTION('ref_axis',(0.,1.,0.));
#296=DIRECTION('center_axis',(1.,2.69381029000286E-31,0.));
#297=DIRECTION('ref_axis',(0.,1.,0.));
#298=DIRECTION('center_axis',(1.,2.69381029000286E-31,0.));
#299=DIRECTION('ref_axis',(0.,1.,0.));
#300=DIRECTION('center_axis',(1.,2.69381029000286E-31,0.));
#301=DIRECTION('ref_axis',(0.,1.,0.));
#302=DIRECTION('center_axis',(1.,2.69381029000286E-31,0.));
#303=DIRECTION('ref_axis',(0.,1.,0.));
#304=DIRECTION('center_axis',(1.,2.69381029000286E-31,0.));
#305=DIRECTION('ref_axis',(0.,1.,0.));
#306=DIRECTION('center_axis',(1.,2.69381029000286E-31,0.));
#307=DIRECTION('ref_axis',(0.,0.,-1.));
#308=DIRECTION('center_axis',(-1.,-2.69381029000286E-31,0.));
#309=DIRECTION('ref_axis',(0.,0.,1.));
#310=DIRECTION('center_axis',(1.,2.69381029000286E-31,0.));
#311=DIRECTION('ref_axis',(0.,1.,0.));
#312=DIRECTION('center_axis',(1.,2.69381029000286E-31,0.));
#313=DIRECTION('ref_axis',(0.,1.,0.));
#314=DIRECTION('center_axis',(1.,2.69381029000286E-31,0.));
#315=DIRECTION('ref_axis',(0.,1.,0.));
#316=DIRECTION('center_axis',(-1.,-2.69381029000286E-31,0.));
#317=DIRECTION('ref_axis',(0.,1.,0.));
#318=DIRECTION('center_axis',(1.,2.69381029000286E-31,0.));
#319=DIRECTION('ref_axis',(0.,1.,0.));
#320=DIRECTION('center_axis',(1.,2.69381029000286E-31,0.));
#321=DIRECTION('ref_axis',(0.,0.,-1.));
#322=DIRECTION('center_axis',(1.,2.69381029000286E-31,0.));
#323=DIRECTION('ref_axis',(0.,1.,0.));
#324=DIRECTION('center_axis',(1.,2.69381029000286E-31,0.));
#325=DIRECTION('ref_axis',(0.,1.,0.));
#326=DIRECTION('axis',(0.,0.,1.));
#327=DIRECTION('refdir',(1.,0.,0.));
#328=DIRECTION('center_axis',(-1.,-1.45022788514244E-16,0.));
#329=DIRECTION('ref_axis',(1.45022788514244E-16,-1.,0.));
#330=DIRECTION('center_axis',(1.,1.45022788514244E-16,0.));
#331=DIRECTION('ref_axis',(1.45022788514244E-16,-1.,0.));
#332=DIRECTION('center_axis',(-1.,-1.45022788514244E-16,0.));
#333=DIRECTION('ref_axis',(1.45022788514244E-16,-1.,0.));
#334=DIRECTION('center_axis',(1.,1.45022788514244E-16,0.));
#335=DIRECTION('ref_axis',(-1.45022788514244E-16,1.,0.));
#336=DIRECTION('center_axis',(1.,1.45022788514244E-16,0.));
#337=DIRECTION('ref_axis',(-1.45022788514244E-16,1.,0.));
#338=DIRECTION('center_axis',(1.,1.45022788514244E-16,0.));
#339=DIRECTION('ref_axis',(0.,0.,-1.));
#340=DIRECTION('center_axis',(-1.,-1.45022788514244E-16,0.));
#341=DIRECTION('ref_axis',(0.,0.,1.));
#342=DIRECTION('axis',(0.,0.,1.));
#343=DIRECTION('refdir',(1.,0.,0.));
#344=DIRECTION('',(0.,0.,1.));
#345=DIRECTION('',(1.,0.,0.));
#346=DIRECTION('',(0.,0.,1.));
#347=DIRECTION('',(1.,0.,0.));
#348=DIRECTION('',(0.,0.,-1.));
#349=DIRECTION('',(-1.,2.85587916302291E-17,0.));
#350=CARTESIAN_POINT('',(0.,0.,0.));
#351=CARTESIAN_POINT('Origin',(263.5,1.50000000000004,0.));
#352=CARTESIAN_POINT('',(263.5,3.00000000000002,0.));
#353=CARTESIAN_POINT('Origin',(263.5,-1.34940290452833E-15,0.));
#354=CARTESIAN_POINT('Origin',(13.5000000000001,1.5,0.));
#355=CARTESIAN_POINT('',(13.5000000000001,2.99999999999999,0.));
#356=CARTESIAN_POINT('Origin',(13.5000000000001,2.22044604925031E-15,0.));
#357=CARTESIAN_POINT('Origin',(138.5,4.35521572360992E-16,0.));
#358=CARTESIAN_POINT('',(0.,0.,0.));
#359=CARTESIAN_POINT('Origin',(302.75,8.15551065298365E-29,0.));
#360=CARTESIAN_POINT('',(302.5,2.50000000000008,3.06161699786848E-16));
#361=CARTESIAN_POINT('Origin',(302.5,8.14877612725864E-29,0.));
#362=CARTESIAN_POINT('',(303.,2.00000000000008,-2.4492935982948E-16));
#363=CARTESIAN_POINT('Origin',(303.,8.16224517870866E-29,0.));
#364=CARTESIAN_POINT('Origin',(300.5,8.09489992145859E-29,0.));
#365=CARTESIAN_POINT('',(298.,2.50000000000008,0.));
#366=CARTESIAN_POINT('Origin',(298.,8.02755466420851E-29,0.));
#367=CARTESIAN_POINT('Origin',(303.,1.25000000000004,0.));
#368=CARTESIAN_POINT('Origin',(292.561,0.,0.));
#369=CARTESIAN_POINT('',(296.330839973171,4.73154115482473,0.));
#370=CARTESIAN_POINT('Origin',(296.330839973171,7.98259065964917E-29,0.));
#371=CARTESIAN_POINT('',(292.561,7.79999999999993,0.));
#372=CARTESIAN_POINT('Origin',(292.561,7.88103832253526E-29,0.));
#373=CARTESIAN_POINT('Origin',(296.665419986585,7.99160361047883E-29,0.));
#374=CARTESIAN_POINT('',(297.,5.50000000000007,0.));
#375=CARTESIAN_POINT('Origin',(297.,8.00061656130849E-29,0.));
#376=CARTESIAN_POINT('Origin',(297.5,8.0140856127585E-29,0.));
#377=CARTESIAN_POINT('',(298.,5.50000000000007,0.));
#378=CARTESIAN_POINT('Origin',(298.,8.02755466420852E-29,0.));
#379=CARTESIAN_POINT('Origin',(298.,4.00000000000008,0.));
#380=CARTESIAN_POINT('Origin',(7.21644966006352E-15,2.74999999999996,0.));
#381=CARTESIAN_POINT('',(1.4432899320127E-14,5.49999999999991,0.));
#382=CARTESIAN_POINT('Origin',(1.4432899320127E-14,3.94115193091355E-45,
0.));
#383=CARTESIAN_POINT('Origin',(0.500000000000015,1.34690514500147E-31,0.));
#384=CARTESIAN_POINT('',(1.00000000000001,5.49999999999991,0.));
#385=CARTESIAN_POINT('Origin',(1.00000000000001,2.6938102900029E-31,0.));
#386=CARTESIAN_POINT('Origin',(1.34338595062985,3.61882689725196E-31,0.));
#387=CARTESIAN_POINT('',(1.68677190125969,4.81322809874027,0.));
#388=CARTESIAN_POINT('Origin',(1.68677190125969,4.54384350450104E-31,0.));
#389=CARTESIAN_POINT('Origin',(5.43874967965139,0.,0.));
#390=CARTESIAN_POINT('',(5.43874967965134,7.79999999999993,0.));
#391=CARTESIAN_POINT('Origin',(5.43874967965134,1.46509598517945E-30,0.));
#392=CARTESIAN_POINT('Origin',(148.999874839826,4.0137739605266E-29,0.));
#393=CARTESIAN_POINT('',(0.,0.,0.));
#394=CARTESIAN_POINT('Origin',(4.75,6.88858245442657E-16,0.));
#395=CARTESIAN_POINT('',(4.5,2.5,3.06161699786838E-16));
#396=CARTESIAN_POINT('Origin',(4.5,6.52602548314096E-16,0.));
#397=CARTESIAN_POINT('',(5.,2.,-2.44929359829471E-16));
#398=CARTESIAN_POINT('Origin',(5.,7.25113942571218E-16,0.));
#399=CARTESIAN_POINT('Origin',(2.5,3.62556971285609E-16,0.));
#400=CARTESIAN_POINT('',(0.,2.5,0.));
#401=CARTESIAN_POINT('Origin',(5.55111512312578E-16,1.23259516440783E-31,
0.));
#402=CARTESIAN_POINT('Origin',(5.,1.25,0.));
#403=CARTESIAN_POINT('Origin',(0.,1.25,0.));
#404=CARTESIAN_POINT('',(0.,0.,0.));
#405=CARTESIAN_POINT('',(0.,0.,0.));
#406=CARTESIAN_POINT('',(263.5,2.41321789275437E-15,0.));
#407=CARTESIAN_POINT('',(13.5000000000001,1.94685773111625E-15,0.));
#408=UNCERTAINTY_MEASURE_WITH_UNIT(LENGTH_MEASURE(0.01),#418,
'DISTANCE_ACCURACY_VALUE',
'Maximum model space distance between geometric entities at asserted c
onnectivities');
#409=UNCERTAINTY_MEASURE_WITH_UNIT(LENGTH_MEASURE(0.01),#418,
'DISTANCE_ACCURACY_VALUE',
'Maximum model space distance between geometric entities at asserted c
onnectivities');
#410=UNCERTAINTY_MEASURE_WITH_UNIT(LENGTH_MEASURE(0.01),#418,
'DISTANCE_ACCURACY_VALUE',
'Maximum model space distance between geometric entities at asserted c
onnectivities');
#411=UNCERTAINTY_MEASURE_WITH_UNIT(LENGTH_MEASURE(0.01),#418,
'DISTANCE_ACCURACY_VALUE',
'Maximum model space distance between geometric entities at asserted c
onnectivities');
#412=UNCERTAINTY_MEASURE_WITH_UNIT(LENGTH_MEASURE(1.E-6),#418,
'DISTANCE_ACCURACY_VALUE',
'Maximum model space distance between geometric entities at asserted c
onnectivities');
#413=(
GEOMETRIC_REPRESENTATION_CONTEXT(3)
GLOBAL_UNCERTAINTY_ASSIGNED_CONTEXT((#408))
GLOBAL_UNIT_ASSIGNED_CONTEXT((#418,#421,#419))
REPRESENTATION_CONTEXT('','3D')
);
#414=(
GEOMETRIC_REPRESENTATION_CONTEXT(3)
GLOBAL_UNCERTAINTY_ASSIGNED_CONTEXT((#409))
GLOBAL_UNIT_ASSIGNED_CONTEXT((#418,#421,#419))
REPRESENTATION_CONTEXT('','3D')
);
#415=(
GEOMETRIC_REPRESENTATION_CONTEXT(3)
GLOBAL_UNCERTAINTY_ASSIGNED_CONTEXT((#410))
GLOBAL_UNIT_ASSIGNED_CONTEXT((#418,#421,#419))
REPRESENTATION_CONTEXT('','3D')
);
#416=(
GEOMETRIC_REPRESENTATION_CONTEXT(3)
GLOBAL_UNCERTAINTY_ASSIGNED_CONTEXT((#411))
GLOBAL_UNIT_ASSIGNED_CONTEXT((#418,#421,#419))
REPRESENTATION_CONTEXT('','3D')
);
#417=(
GEOMETRIC_REPRESENTATION_CONTEXT(3)
GLOBAL_UNCERTAINTY_ASSIGNED_CONTEXT((#412))
GLOBAL_UNIT_ASSIGNED_CONTEXT((#418,#421,#419))
REPRESENTATION_CONTEXT('','3D')
);
#418=(
LENGTH_UNIT()
NAMED_UNIT(*)
SI_UNIT(.MILLI.,.METRE.)
);
#419=(
NAMED_UNIT(*)
SI_UNIT($,.STERADIAN.)
SOLID_ANGLE_UNIT()
);
#420=DIMENSIONAL_EXPONENTS(0.,0.,0.,0.,0.,0.,0.);
#421=(
CONVERSION_BASED_UNIT('degree',#423)
NAMED_UNIT(#420)
PLANE_ANGLE_UNIT()
);
#422=(
NAMED_UNIT(*)
PLANE_ANGLE_UNIT()
SI_UNIT($,.RADIAN.)
);
#423=PLANE_ANGLE_MEASURE_WITH_UNIT(PLANE_ANGLE_MEASURE(0.01745329252),#422);
#424=SHAPE_DEFINITION_REPRESENTATION(#428,#435);
#425=SHAPE_DEFINITION_REPRESENTATION(#429,#436);
#426=SHAPE_DEFINITION_REPRESENTATION(#430,#437);
#427=SHAPE_DEFINITION_REPRESENTATION(#431,#438);
#428=PRODUCT_DEFINITION_SHAPE('',$,#440);
#429=PRODUCT_DEFINITION_SHAPE('',$,#441);
#430=PRODUCT_DEFINITION_SHAPE('',$,#442);
#431=PRODUCT_DEFINITION_SHAPE('',$,#443);
#432=PRODUCT_DEFINITION_SHAPE($,$,#20);
#433=PRODUCT_DEFINITION_SHAPE($,$,#21);
#434=PRODUCT_DEFINITION_SHAPE($,$,#22);
#435=SHAPE_REPRESENTATION('',(#224),#413);
#436=SHAPE_REPRESENTATION('',(#230),#414);
#437=SHAPE_REPRESENTATION('',(#254),#415);
#438=SHAPE_REPRESENTATION('',(#262,#263,#264,#265),#416);
#439=PRODUCT_DEFINITION_CONTEXT('part definition',#453,'design');
#440=PRODUCT_DEFINITION('ENG-001076','ENG-001076',#444,#439);
#441=PRODUCT_DEFINITION('ENG-007217','ENG-007217',#445,#439);
#442=PRODUCT_DEFINITION('Gew-03.1','Gew-03.1',#446,#439);
#443=PRODUCT_DEFINITION('Baugruppe1','Baugruppe1',#447,#439);
#444=PRODUCT_DEFINITION_FORMATION('',$,#455);
#445=PRODUCT_DEFINITION_FORMATION('',$,#456);
#446=PRODUCT_DEFINITION_FORMATION('',$,#457);
#447=PRODUCT_DEFINITION_FORMATION('',$,#458);
#448=PRODUCT_RELATED_PRODUCT_CATEGORY('ENG-001076','ENG-001076',(#455));
#449=PRODUCT_RELATED_PRODUCT_CATEGORY('ENG-007217','ENG-007217',(#456));
#450=PRODUCT_RELATED_PRODUCT_CATEGORY('Gew-03.1','Gew-03.1',(#457));
#451=PRODUCT_RELATED_PRODUCT_CATEGORY('Baugruppe1','Baugruppe1',(#458));
#452=APPLICATION_PROTOCOL_DEFINITION('international standard',
'automotive_design',2009,#453);
#453=APPLICATION_CONTEXT(
'Core Data for Automotive Mechanical Design Process');
#454=PRODUCT_CONTEXT('part definition',#453,'mechanical');
#455=PRODUCT('ENG-001076','ENG-001076',$,(#454));
#456=PRODUCT('ENG-007217','ENG-007217',$,(#454));
#457=PRODUCT('Gew-03.1','Gew-03.1',$,(#454));
#458=PRODUCT('Baugruppe1','Baugruppe1',$,(#454));
#459=PRESENTATION_STYLE_ASSIGNMENT((#461));
#460=PRESENTATION_STYLE_ASSIGNMENT((#462));
#461=SURFACE_STYLE_USAGE(.BOTH.,#463);
#462=SURFACE_STYLE_USAGE(.BOTH.,#464);
#463=SURFACE_SIDE_STYLE('',(#465));
#464=SURFACE_SIDE_STYLE('',(#466));
#465=SURFACE_STYLE_FILL_AREA(#467);
#466=SURFACE_STYLE_FILL_AREA(#468);
#467=FILL_AREA_STYLE('',(#469));
#468=FILL_AREA_STYLE('',(#470));
#469=FILL_AREA_STYLE_COLOUR('',#471);
#470=FILL_AREA_STYLE_COLOUR('',#472);
#471=COLOUR_RGB('',0.63921568627451,0.63921568627451,0.686274509803922);
#472=COLOUR_RGB('',0.549019607843137,0.549019607843137,0.607843137254902);
ENDSEC;
END-ISO-10303-21;
